ISO-10303-21;
HEADER;
/* Generated by software containing ST-Developer
 * from STEP Tools, Inc. (www.steptools.com) 
 */
/* OPTION: using custom renumber hook */

FILE_DESCRIPTION(
/* description */ ('STEP AP242',
'CAx-IF Rec.Pracs.---Representation and Presentation of Product Manufa
cturing Information (PMI)---4.0---2014-10-13',
'CAx-IF Rec.Pracs.---3D Tessellated Geometry---0.4---2014-09-14','2;1'),

/* implementation_level */ '2;1');

FILE_NAME(
/* name */ '683d904925b5177216b36c88',
/* time_stamp */ '2025-06-02T11:51:38Z',
/* author */ (''),
/* organization */ (''),
/* preprocessor_version */ 'ST-DEVELOPER v20',
/* originating_system */ 'ONSHAPE BY PTC INC, 1.198',
/* authorisation */ '  ');

FILE_SCHEMA (('AP242_MANAGED_MODEL_BASED_3D_ENGINEERING_MIM_LF { 1 0 10303 442 1 1 4 }'));
ENDSEC;

DATA;
#10=LINE('',#354,#34);
#11=LINE('',#357,#35);
#12=LINE('',#359,#36);
#13=LINE('',#361,#37);
#14=LINE('',#363,#38);
#15=LINE('',#365,#39);
#16=LINE('',#367,#40);
#17=LINE('',#369,#41);
#18=LINE('',#371,#42);
#19=LINE('',#373,#43);
#20=LINE('',#375,#44);
#21=LINE('',#376,#45);
#22=LINE('',#381,#46);
#23=LINE('',#384,#47);
#24=LINE('',#386,#48);
#25=LINE('',#388,#49);
#26=LINE('',#390,#50);
#27=LINE('',#392,#51);
#28=LINE('',#394,#52);
#29=LINE('',#396,#53);
#30=LINE('',#398,#54);
#31=LINE('',#400,#55);
#32=LINE('',#402,#56);
#33=LINE('',#403,#57);
#34=VECTOR('',#296,1.);
#35=VECTOR('',#297,1.);
#36=VECTOR('',#298,1.);
#37=VECTOR('',#299,1.);
#38=VECTOR('',#302,1.);
#39=VECTOR('',#303,1.);
#40=VECTOR('',#304,1.);
#41=VECTOR('',#307,1.);
#42=VECTOR('',#308,1.);
#43=VECTOR('',#309,1.);
#44=VECTOR('',#312,1.);
#45=VECTOR('',#313,1.);
#46=VECTOR('',#322,1.);
#47=VECTOR('',#323,1.);
#48=VECTOR('',#324,1.);
#49=VECTOR('',#325,1.);
#50=VECTOR('',#328,1.);
#51=VECTOR('',#329,1.);
#52=VECTOR('',#330,1.);
#53=VECTOR('',#333,1.);
#54=VECTOR('',#334,1.);
#55=VECTOR('',#335,1.);
#56=VECTOR('',#338,1.);
#57=VECTOR('',#339,1.);
#58=SHAPE_REPRESENTATION_RELATIONSHIP('','',#257,#61);
#59=SHAPE_REPRESENTATION_RELATIONSHIP('','',#258,#62);
#60=SHAPE_REPRESENTATION_RELATIONSHIP('','',#259,#63);
#61=ADVANCED_BREP_SHAPE_REPRESENTATION('',(#251),#409);
#62=ADVANCED_BREP_SHAPE_REPRESENTATION('',(#252),#410);
#63=ADVANCED_BREP_SHAPE_REPRESENTATION('',(#253),#411);
#64=PLANE('',#264);
#65=PLANE('',#265);
#66=PLANE('',#267);
#67=PLANE('',#268);
#68=PLANE('',#269);
#69=PLANE('',#270);
#70=PLANE('',#271);
#71=PLANE('',#272);
#72=PLANE('',#274);
#73=PLANE('',#275);
#74=PLANE('',#276);
#75=PLANE('',#277);
#76=PLANE('',#278);
#77=PLANE('',#279);
#78=ORIENTED_EDGE('',*,*,#130,.F.);
#79=ORIENTED_EDGE('',*,*,#131,.T.);
#80=ORIENTED_EDGE('',*,*,#130,.T.);
#81=ORIENTED_EDGE('',*,*,#131,.F.);
#82=ORIENTED_EDGE('',*,*,#132,.F.);
#83=ORIENTED_EDGE('',*,*,#133,.F.);
#84=ORIENTED_EDGE('',*,*,#134,.T.);
#85=ORIENTED_EDGE('',*,*,#135,.T.);
#86=ORIENTED_EDGE('',*,*,#136,.T.);
#87=ORIENTED_EDGE('',*,*,#137,.F.);
#88=ORIENTED_EDGE('',*,*,#138,.F.);
#89=ORIENTED_EDGE('',*,*,#133,.T.);
#90=ORIENTED_EDGE('',*,*,#139,.T.);
#91=ORIENTED_EDGE('',*,*,#140,.F.);
#92=ORIENTED_EDGE('',*,*,#141,.F.);
#93=ORIENTED_EDGE('',*,*,#137,.T.);
#94=ORIENTED_EDGE('',*,*,#142,.F.);
#95=ORIENTED_EDGE('',*,*,#135,.F.);
#96=ORIENTED_EDGE('',*,*,#143,.T.);
#97=ORIENTED_EDGE('',*,*,#140,.T.);
#98=ORIENTED_EDGE('',*,*,#134,.F.);
#99=ORIENTED_EDGE('',*,*,#138,.T.);
#100=ORIENTED_EDGE('',*,*,#141,.T.);
#101=ORIENTED_EDGE('',*,*,#143,.F.);
#102=ORIENTED_EDGE('',*,*,#132,.T.);
#103=ORIENTED_EDGE('',*,*,#142,.T.);
#104=ORIENTED_EDGE('',*,*,#139,.F.);
#105=ORIENTED_EDGE('',*,*,#136,.F.);
#106=ORIENTED_EDGE('',*,*,#144,.F.);
#107=ORIENTED_EDGE('',*,*,#145,.F.);
#108=ORIENTED_EDGE('',*,*,#146,.T.);
#109=ORIENTED_EDGE('',*,*,#147,.T.);
#110=ORIENTED_EDGE('',*,*,#148,.T.);
#111=ORIENTED_EDGE('',*,*,#149,.F.);
#112=ORIENTED_EDGE('',*,*,#150,.F.);
#113=ORIENTED_EDGE('',*,*,#145,.T.);
#114=ORIENTED_EDGE('',*,*,#151,.T.);
#115=ORIENTED_EDGE('',*,*,#152,.F.);
#116=ORIENTED_EDGE('',*,*,#153,.F.);
#117=ORIENTED_EDGE('',*,*,#149,.T.);
#118=ORIENTED_EDGE('',*,*,#154,.F.);
#119=ORIENTED_EDGE('',*,*,#147,.F.);
#120=ORIENTED_EDGE('',*,*,#155,.T.);
#121=ORIENTED_EDGE('',*,*,#152,.T.);
#122=ORIENTED_EDGE('',*,*,#146,.F.);
#123=ORIENTED_EDGE('',*,*,#150,.T.);
#124=ORIENTED_EDGE('',*,*,#153,.T.);
#125=ORIENTED_EDGE('',*,*,#155,.F.);
#126=ORIENTED_EDGE('',*,*,#144,.T.);
#127=ORIENTED_EDGE('',*,*,#154,.T.);
#128=ORIENTED_EDGE('',*,*,#151,.F.);
#129=ORIENTED_EDGE('',*,*,#148,.F.);
#130=EDGE_CURVE('',#156,#156,#174,.T.);
#131=EDGE_CURVE('',#157,#157,#175,.T.);
#132=EDGE_CURVE('',#158,#159,#10,.T.);
#133=EDGE_CURVE('',#160,#158,#11,.T.);
#134=EDGE_CURVE('',#160,#161,#12,.T.);
#135=EDGE_CURVE('',#161,#159,#13,.T.);
#136=EDGE_CURVE('',#158,#162,#14,.T.);
#137=EDGE_CURVE('',#163,#162,#15,.T.);
#138=EDGE_CURVE('',#160,#163,#16,.T.);
#139=EDGE_CURVE('',#162,#164,#17,.T.);
#140=EDGE_CURVE('',#165,#164,#18,.T.);
#141=EDGE_CURVE('',#163,#165,#19,.T.);
#142=EDGE_CURVE('',#159,#164,#20,.T.);
#143=EDGE_CURVE('',#161,#165,#21,.T.);
#144=EDGE_CURVE('',#166,#167,#22,.T.);
#145=EDGE_CURVE('',#168,#166,#23,.T.);
#146=EDGE_CURVE('',#168,#169,#24,.T.);
#147=EDGE_CURVE('',#169,#167,#25,.T.);
#148=EDGE_CURVE('',#166,#170,#26,.T.);
#149=EDGE_CURVE('',#171,#170,#27,.T.);
#150=EDGE_CURVE('',#168,#171,#28,.T.);
#151=EDGE_CURVE('',#170,#172,#29,.T.);
#152=EDGE_CURVE('',#173,#172,#30,.T.);
#153=EDGE_CURVE('',#171,#173,#31,.T.);
#154=EDGE_CURVE('',#167,#172,#32,.T.);
#155=EDGE_CURVE('',#169,#173,#33,.T.);
#156=VERTEX_POINT('',#347);
#157=VERTEX_POINT('',#349);
#158=VERTEX_POINT('',#355);
#159=VERTEX_POINT('',#356);
#160=VERTEX_POINT('',#358);
#161=VERTEX_POINT('',#360);
#162=VERTEX_POINT('',#364);
#163=VERTEX_POINT('',#366);
#164=VERTEX_POINT('',#370);
#165=VERTEX_POINT('',#372);
#166=VERTEX_POINT('',#382);
#167=VERTEX_POINT('',#383);
#168=VERTEX_POINT('',#385);
#169=VERTEX_POINT('',#387);
#170=VERTEX_POINT('',#391);
#171=VERTEX_POINT('',#393);
#172=VERTEX_POINT('',#397);
#173=VERTEX_POINT('',#399);
#174=CIRCLE('',#262,0.0009);
#175=CIRCLE('',#263,0.0009);
#176=EDGE_LOOP('',(#78));
#177=EDGE_LOOP('',(#79));
#178=EDGE_LOOP('',(#80));
#179=EDGE_LOOP('',(#81));
#180=EDGE_LOOP('',(#82,#83,#84,#85));
#181=EDGE_LOOP('',(#86,#87,#88,#89));
#182=EDGE_LOOP('',(#90,#91,#92,#93));
#183=EDGE_LOOP('',(#94,#95,#96,#97));
#184=EDGE_LOOP('',(#98,#99,#100,#101));
#185=EDGE_LOOP('',(#102,#103,#104,#105));
#186=EDGE_LOOP('',(#106,#107,#108,#109));
#187=EDGE_LOOP('',(#110,#111,#112,#113));
#188=EDGE_LOOP('',(#114,#115,#116,#117));
#189=EDGE_LOOP('',(#118,#119,#120,#121));
#190=EDGE_LOOP('',(#122,#123,#124,#125));
#191=EDGE_LOOP('',(#126,#127,#128,#129));
#192=FACE_BOUND('',#176,.T.);
#193=FACE_BOUND('',#177,.T.);
#194=FACE_BOUND('',#178,.T.);
#195=FACE_BOUND('',#179,.T.);
#196=FACE_BOUND('',#180,.T.);
#197=FACE_BOUND('',#181,.T.);
#198=FACE_BOUND('',#182,.T.);
#199=FACE_BOUND('',#183,.T.);
#200=FACE_BOUND('',#184,.T.);
#201=FACE_BOUND('',#185,.T.);
#202=FACE_BOUND('',#186,.T.);
#203=FACE_BOUND('',#187,.T.);
#204=FACE_BOUND('',#188,.T.);
#205=FACE_BOUND('',#189,.T.);
#206=FACE_BOUND('',#190,.T.);
#207=FACE_BOUND('',#191,.T.);
#208=CYLINDRICAL_SURFACE('',#261,0.0009);
#209=ADVANCED_FACE('',(#192,#193),#208,.T.);
#210=ADVANCED_FACE('',(#194),#64,.T.);
#211=ADVANCED_FACE('',(#195),#65,.F.);
#212=ADVANCED_FACE('',(#196),#66,.T.);
#213=ADVANCED_FACE('',(#197),#67,.F.);
#214=ADVANCED_FACE('',(#198),#68,.F.);
#215=ADVANCED_FACE('',(#199),#69,.T.);
#216=ADVANCED_FACE('',(#200),#70,.T.);
#217=ADVANCED_FACE('',(#201),#71,.F.);
#218=ADVANCED_FACE('',(#202),#72,.T.);
#219=ADVANCED_FACE('',(#203),#73,.F.);
#220=ADVANCED_FACE('',(#204),#74,.F.);
#221=ADVANCED_FACE('',(#205),#75,.T.);
#222=ADVANCED_FACE('',(#206),#76,.T.);
#223=ADVANCED_FACE('',(#207),#77,.F.);
#224=CLOSED_SHELL('',(#209,#210,#211));
#225=CLOSED_SHELL('',(#212,#213,#214,#215,#216,#217));
#226=CLOSED_SHELL('',(#218,#219,#220,#221,#222,#223));
#227=STYLED_ITEM('',(#230),#251);
#228=STYLED_ITEM('',(#231),#252);
#229=STYLED_ITEM('',(#232),#253);
#230=PRESENTATION_STYLE_ASSIGNMENT((#233));
#231=PRESENTATION_STYLE_ASSIGNMENT((#234));
#232=PRESENTATION_STYLE_ASSIGNMENT((#235));
#233=SURFACE_STYLE_USAGE(.BOTH.,#236);
#234=SURFACE_STYLE_USAGE(.BOTH.,#237);
#235=SURFACE_STYLE_USAGE(.BOTH.,#238);
#236=SURFACE_SIDE_STYLE('',(#239));
#237=SURFACE_SIDE_STYLE('',(#240));
#238=SURFACE_SIDE_STYLE('',(#241));
#239=SURFACE_STYLE_FILL_AREA(#242);
#240=SURFACE_STYLE_FILL_AREA(#243);
#241=SURFACE_STYLE_FILL_AREA(#244);
#242=FILL_AREA_STYLE('',(#245));
#243=FILL_AREA_STYLE('',(#246));
#244=FILL_AREA_STYLE('',(#247));
#245=FILL_AREA_STYLE_COLOUR('',#248);
#246=FILL_AREA_STYLE_COLOUR('',#249);
#247=FILL_AREA_STYLE_COLOUR('',#250);
#248=COLOUR_RGB('',0.349019607843138,0.376470588235294,0.4);
#249=COLOUR_RGB('',0.811764705882353,0.858823529411765,0.898039215686275);
#250=COLOUR_RGB('',0.529411764705882,0.568627450980392,0.6);
#251=MANIFOLD_SOLID_BREP('Part 3',#224);
#252=MANIFOLD_SOLID_BREP('Part 2',#225);
#253=MANIFOLD_SOLID_BREP('Part 1',#226);
#254=SHAPE_DEFINITION_REPRESENTATION(#424,#257);
#255=SHAPE_DEFINITION_REPRESENTATION(#425,#258);
#256=SHAPE_DEFINITION_REPRESENTATION(#426,#259);
#257=SHAPE_REPRESENTATION('Part 3',(#260),#409);
#258=SHAPE_REPRESENTATION('Part 2',(#266),#410);
#259=SHAPE_REPRESENTATION('Part 1',(#273),#411);
#260=AXIS2_PLACEMENT_3D('',#344,#280,#281);
#261=AXIS2_PLACEMENT_3D('',#345,#282,#283);
#262=AXIS2_PLACEMENT_3D('',#346,#284,#285);
#263=AXIS2_PLACEMENT_3D('',#348,#286,#287);
#264=AXIS2_PLACEMENT_3D('',#350,#288,#289);
#265=AXIS2_PLACEMENT_3D('',#351,#290,#291);
#266=AXIS2_PLACEMENT_3D('',#352,#292,#293);
#267=AXIS2_PLACEMENT_3D('',#353,#294,#295);
#268=AXIS2_PLACEMENT_3D('',#362,#300,#301);
#269=AXIS2_PLACEMENT_3D('',#368,#305,#306);
#270=AXIS2_PLACEMENT_3D('',#374,#310,#311);
#271=AXIS2_PLACEMENT_3D('',#377,#314,#315);
#272=AXIS2_PLACEMENT_3D('',#378,#316,#317);
#273=AXIS2_PLACEMENT_3D('',#379,#318,#319);
#274=AXIS2_PLACEMENT_3D('',#380,#320,#321);
#275=AXIS2_PLACEMENT_3D('',#389,#326,#327);
#276=AXIS2_PLACEMENT_3D('',#395,#331,#332);
#277=AXIS2_PLACEMENT_3D('',#401,#336,#337);
#278=AXIS2_PLACEMENT_3D('',#404,#340,#341);
#279=AXIS2_PLACEMENT_3D('',#405,#342,#343);
#280=DIRECTION('',(0.,0.,1.));
#281=DIRECTION('',(1.,0.,0.));
#282=DIRECTION('',(0.,0.,-1.));
#283=DIRECTION('',(-1.,0.,0.));
#284=DIRECTION('',(0.,0.,1.));
#285=DIRECTION('',(1.,0.,0.));
#286=DIRECTION('',(0.,0.,1.));
#287=DIRECTION('',(1.,0.,0.));
#288=DIRECTION('',(0.,0.,1.));
#289=DIRECTION('',(1.,0.,0.));
#290=DIRECTION('',(0.,0.,1.));
#291=DIRECTION('',(1.,0.,0.));
#292=DIRECTION('',(0.,0.,1.));
#293=DIRECTION('',(1.,0.,0.));
#294=DIRECTION('',(1.3010426069826E-16,-1.,0.));
#295=DIRECTION('',(1.,1.3010426069826E-16,0.));
#296=DIRECTION('',(-1.,-1.3010426069826E-16,0.));
#297=DIRECTION('',(0.,0.,-1.));
#298=DIRECTION('',(-1.,-1.3010426069826E-16,0.));
#299=DIRECTION('',(0.,0.,-1.));
#300=DIRECTION('',(-1.,0.,0.));
#301=DIRECTION('',(0.,0.,1.));
#302=DIRECTION('',(0.,1.,0.));
#303=DIRECTION('',(0.,0.,-1.));
#304=DIRECTION('',(0.,1.,0.));
#305=DIRECTION('',(1.3010426069826E-16,-1.,0.));
#306=DIRECTION('',(1.,1.3010426069826E-16,0.));
#307=DIRECTION('',(-1.,-1.3010426069826E-16,0.));
#308=DIRECTION('',(0.,0.,-1.));
#309=DIRECTION('',(-1.,-1.3010426069826E-16,0.));
#310=DIRECTION('',(-1.,0.,0.));
#311=DIRECTION('',(0.,0.,1.));
#312=DIRECTION('',(0.,1.,0.));
#313=DIRECTION('',(0.,1.,0.));
#314=DIRECTION('',(0.,0.,1.));
#315=DIRECTION('',(1.,0.,0.));
#316=DIRECTION('',(0.,0.,1.));
#317=DIRECTION('',(1.,0.,0.));
#318=DIRECTION('',(0.,0.,1.));
#319=DIRECTION('',(1.,0.,0.));
#320=DIRECTION('',(1.11200222819026E-16,-1.,0.));
#321=DIRECTION('',(1.,1.11200222819026E-16,0.));
#322=DIRECTION('',(-1.,-1.11200222819026E-16,0.));
#323=DIRECTION('',(0.,0.,-1.));
#324=DIRECTION('',(-1.,-1.11200222819026E-16,0.));
#325=DIRECTION('',(0.,0.,-1.));
#326=DIRECTION('',(-1.,7.2280144832367E-17,0.));
#327=DIRECTION('',(-7.2280144832367E-17,-1.,0.));
#328=DIRECTION('',(7.2280144832367E-17,1.,0.));
#329=DIRECTION('',(0.,0.,-1.));
#330=DIRECTION('',(7.2280144832367E-17,1.,0.));
#331=DIRECTION('',(1.11200222819026E-16,-1.,0.));
#332=DIRECTION('',(1.,1.11200222819026E-16,0.));
#333=DIRECTION('',(-1.,-1.11200222819026E-16,0.));
#334=DIRECTION('',(0.,0.,-1.));
#335=DIRECTION('',(-1.,-1.11200222819026E-16,0.));
#336=DIRECTION('',(-1.,7.2280144832367E-17,0.));
#337=DIRECTION('',(-7.2280144832367E-17,-1.,0.));
#338=DIRECTION('',(7.2280144832367E-17,1.,0.));
#339=DIRECTION('',(7.2280144832367E-17,1.,0.));
#340=DIRECTION('',(0.,0.,1.));
#341=DIRECTION('',(1.,0.,0.));
#342=DIRECTION('',(0.,0.,1.));
#343=DIRECTION('',(1.,0.,0.));
#344=CARTESIAN_POINT('',(0.,0.,0.));
#345=CARTESIAN_POINT('',(0.,5.51091059616309E-20,0.002));
#346=CARTESIAN_POINT('',(0.,5.51091059616309E-20,0.002));
#347=CARTESIAN_POINT('',(0.0009,5.51091059616309E-20,0.002));
#348=CARTESIAN_POINT('',(0.,5.51091059616309E-20,0.0015));
#349=CARTESIAN_POINT('',(0.0009,5.51091059616309E-20,0.0015));
#350=CARTESIAN_POINT('',(8.67361737988404E-19,0.,0.002));
#351=CARTESIAN_POINT('',(8.67361737988404E-19,0.,0.0015));
#352=CARTESIAN_POINT('',(0.,0.,0.));
#353=CARTESIAN_POINT('',(0.,-0.00065,0.000101));
#354=CARTESIAN_POINT('',(0.,-0.00065,1.E-6));
#355=CARTESIAN_POINT('',(0.0025,-0.00065,1.E-6));
#356=CARTESIAN_POINT('',(-0.0025,-0.00065,1.E-6));
#357=CARTESIAN_POINT('',(0.0025,-0.00065,0.000101));
#358=CARTESIAN_POINT('',(0.0025,-0.00065,0.000101));
#359=CARTESIAN_POINT('',(0.,-0.00065,0.000101));
#360=CARTESIAN_POINT('',(-0.0025,-0.00065,0.000101));
#361=CARTESIAN_POINT('',(-0.0025,-0.00065,0.000101));
#362=CARTESIAN_POINT('',(0.0025,2.16840434497101E-19,0.000101));
#363=CARTESIAN_POINT('',(0.0025,2.16840434497101E-19,1.E-6));
#364=CARTESIAN_POINT('',(0.0025,0.00065,1.E-6));
#365=CARTESIAN_POINT('',(0.0025,0.00065,0.000101));
#366=CARTESIAN_POINT('',(0.0025,0.00065,0.000101));
#367=CARTESIAN_POINT('',(0.0025,2.16840434497101E-19,0.000101));
#368=CARTESIAN_POINT('',(0.,0.00065,0.000101));
#369=CARTESIAN_POINT('',(0.,0.00065,1.E-6));
#370=CARTESIAN_POINT('',(-0.0025,0.00065,1.E-6));
#371=CARTESIAN_POINT('',(-0.0025,0.00065,0.000101));
#372=CARTESIAN_POINT('',(-0.0025,0.00065,0.000101));
#373=CARTESIAN_POINT('',(0.,0.00065,0.000101));
#374=CARTESIAN_POINT('',(-0.0025,-4.33680868994202E-19,0.000101));
#375=CARTESIAN_POINT('',(-0.0025,-4.33680868994202E-19,1.E-6));
#376=CARTESIAN_POINT('',(-0.0025,-4.33680868994202E-19,0.000101));
#377=CARTESIAN_POINT('',(0.,0.,0.000101));
#378=CARTESIAN_POINT('',(0.,0.,1.E-6));
#379=CARTESIAN_POINT('',(0.,0.,0.));
#380=CARTESIAN_POINT('',(0.,-0.0015,0.0015));
#381=CARTESIAN_POINT('',(0.,-0.0015,0.));
#382=CARTESIAN_POINT('',(0.00195,-0.0015,0.));
#383=CARTESIAN_POINT('',(-0.00195,-0.0015,0.));
#384=CARTESIAN_POINT('',(0.00195,-0.0015,0.0015));
#385=CARTESIAN_POINT('',(0.00195,-0.0015,0.0015));
#386=CARTESIAN_POINT('',(0.,-0.0015,0.0015));
#387=CARTESIAN_POINT('',(-0.00195,-0.0015,0.0015));
#388=CARTESIAN_POINT('',(-0.00195,-0.0015,0.0015));
#389=CARTESIAN_POINT('',(0.00195,-8.67361737988404E-19,0.0015));
#390=CARTESIAN_POINT('',(0.00195,-8.67361737988404E-19,0.));
#391=CARTESIAN_POINT('',(0.00195,0.0015,0.));
#392=CARTESIAN_POINT('',(0.00195,0.0015,0.0015));
#393=CARTESIAN_POINT('',(0.00195,0.0015,0.0015));
#394=CARTESIAN_POINT('',(0.00195,-8.67361737988404E-19,0.0015));
#395=CARTESIAN_POINT('',(8.67361737988404E-19,0.0015,0.0015));
#396=CARTESIAN_POINT('',(8.67361737988404E-19,0.0015,0.));
#397=CARTESIAN_POINT('',(-0.00195,0.0015,0.));
#398=CARTESIAN_POINT('',(-0.00195,0.0015,0.0015));
#399=CARTESIAN_POINT('',(-0.00195,0.0015,0.0015));
#400=CARTESIAN_POINT('',(8.67361737988404E-19,0.0015,0.0015));
#401=CARTESIAN_POINT('',(-0.00195,0.,0.0015));
#402=CARTESIAN_POINT('',(-0.00195,0.,0.));
#403=CARTESIAN_POINT('',(-0.00195,0.,0.0015));
#404=CARTESIAN_POINT('',(0.,0.,0.0015));
#405=CARTESIAN_POINT('',(0.,0.,0.));
#406=MECHANICAL_DESIGN_GEOMETRIC_PRESENTATION_REPRESENTATION('',(#227),
#409);
#407=MECHANICAL_DESIGN_GEOMETRIC_PRESENTATION_REPRESENTATION('',(#228),
#410);
#408=MECHANICAL_DESIGN_GEOMETRIC_PRESENTATION_REPRESENTATION('',(#229),
#411);
#409=(
GEOMETRIC_REPRESENTATION_CONTEXT(3)
GLOBAL_UNCERTAINTY_ASSIGNED_CONTEXT((#412))
GLOBAL_UNIT_ASSIGNED_CONTEXT((#421,#418,#415))
REPRESENTATION_CONTEXT('Part 3','TOP_LEVEL_ASSEMBLY_PART')
);
#410=(
GEOMETRIC_REPRESENTATION_CONTEXT(3)
GLOBAL_UNCERTAINTY_ASSIGNED_CONTEXT((#413))
GLOBAL_UNIT_ASSIGNED_CONTEXT((#422,#419,#416))
REPRESENTATION_CONTEXT('Part 2','TOP_LEVEL_ASSEMBLY_PART')
);
#411=(
GEOMETRIC_REPRESENTATION_CONTEXT(3)
GLOBAL_UNCERTAINTY_ASSIGNED_CONTEXT((#414))
GLOBAL_UNIT_ASSIGNED_CONTEXT((#423,#420,#417))
REPRESENTATION_CONTEXT('Part 1','TOP_LEVEL_ASSEMBLY_PART')
);
#412=UNCERTAINTY_MEASURE_WITH_UNIT(LENGTH_MEASURE(1.E-8),#421,
'DISTANCE_ACCURACY_VALUE','Maximum Tolerance applied to model');
#413=UNCERTAINTY_MEASURE_WITH_UNIT(LENGTH_MEASURE(1.E-8),#422,
'DISTANCE_ACCURACY_VALUE','Maximum Tolerance applied to model');
#414=UNCERTAINTY_MEASURE_WITH_UNIT(LENGTH_MEASURE(1.E-8),#423,
'DISTANCE_ACCURACY_VALUE','Maximum Tolerance applied to model');
#415=(
NAMED_UNIT(*)
SI_UNIT($,.STERADIAN.)
SOLID_ANGLE_UNIT()
);
#416=(
NAMED_UNIT(*)
SI_UNIT($,.STERADIAN.)
SOLID_ANGLE_UNIT()
);
#417=(
NAMED_UNIT(*)
SI_UNIT($,.STERADIAN.)
SOLID_ANGLE_UNIT()
);
#418=(
NAMED_UNIT(*)
PLANE_ANGLE_UNIT()
SI_UNIT($,.RADIAN.)
);
#419=(
NAMED_UNIT(*)
PLANE_ANGLE_UNIT()
SI_UNIT($,.RADIAN.)
);
#420=(
NAMED_UNIT(*)
PLANE_ANGLE_UNIT()
SI_UNIT($,.RADIAN.)
);
#421=(
LENGTH_UNIT()
NAMED_UNIT(*)
SI_UNIT($,.METRE.)
);
#422=(
LENGTH_UNIT()
NAMED_UNIT(*)
SI_UNIT($,.METRE.)
);
#423=(
LENGTH_UNIT()
NAMED_UNIT(*)
SI_UNIT($,.METRE.)
);
#424=PRODUCT_DEFINITION_SHAPE('','',#427);
#425=PRODUCT_DEFINITION_SHAPE('','',#428);
#426=PRODUCT_DEFINITION_SHAPE('','',#429);
#427=PRODUCT_DEFINITION('','',#433,#430);
#428=PRODUCT_DEFINITION('','',#434,#431);
#429=PRODUCT_DEFINITION('','',#435,#432);
#430=PRODUCT_DEFINITION_CONTEXT('',#451,'design');
#431=PRODUCT_DEFINITION_CONTEXT('',#452,'design');
#432=PRODUCT_DEFINITION_CONTEXT('',#453,'design');
#433=PRODUCT_DEFINITION_FORMATION_WITH_SPECIFIED_SOURCE('','',#439,
 .NOT_KNOWN.);
#434=PRODUCT_DEFINITION_FORMATION_WITH_SPECIFIED_SOURCE('','',#440,
 .NOT_KNOWN.);
#435=PRODUCT_DEFINITION_FORMATION_WITH_SPECIFIED_SOURCE('','',#441,
 .NOT_KNOWN.);
#436=PRODUCT_RELATED_PRODUCT_CATEGORY('','',(#439));
#437=PRODUCT_RELATED_PRODUCT_CATEGORY('','',(#440));
#438=PRODUCT_RELATED_PRODUCT_CATEGORY('','',(#441));
#439=PRODUCT('Part 3','Part 3','Part 3',(#445));
#440=PRODUCT('Part 2','Part 2','Part 2',(#446));
#441=PRODUCT('Part 1','Part 1','Part 1',(#447));
#442=PRODUCT_CATEGORY('','');
#443=PRODUCT_CATEGORY('','');
#444=PRODUCT_CATEGORY('','');
#445=PRODUCT_CONTEXT('',#451,'mechanical');
#446=PRODUCT_CONTEXT('',#452,'mechanical');
#447=PRODUCT_CONTEXT('',#453,'mechanical');
#448=APPLICATION_PROTOCOL_DEFINITION('international standard',
'ap242_managed_model_based_3d_engineering',2011,#451);
#449=APPLICATION_PROTOCOL_DEFINITION('international standard',
'ap242_managed_model_based_3d_engineering',2011,#452);
#450=APPLICATION_PROTOCOL_DEFINITION('international standard',
'ap242_managed_model_based_3d_engineering',2011,#453);
#451=APPLICATION_CONTEXT('managed model based 3d engineering');
#452=APPLICATION_CONTEXT('managed model based 3d engineering');
#453=APPLICATION_CONTEXT('managed model based 3d engineering');
ENDSEC;
END-ISO-10303-21;
